Tabs4Ukulele

Collection of uke tabs & chords for beginners



home icon I walk the line

I walk the line ukulele tab - Johnny Cash


7 chords


A chord chartD chord chartE chord chartB7 chord chartE7 chord chartA7 chord chartG chord chart

(Chord charts offered by Ukulele Chords.)

Tablature



Intro:
         A           D           A           E           B7               | E              x2|
A|-------0---0-0-2-4-5-0-5-5-4-2-0-7-0-0-------2-2-------2-2-2-0-------2-|---2---2---2---2-|
E|-0-2-4---0-----------------------------4-2-0-----0-2-0---------4-2-0---|-0---0---0---0---|
C|-----------------------------------------------------------------------|-----------------|
G|-----------------------------------------------------------------------|-----------------|


1st verse/chorus :
         B7                           E
I keep a close watch on this heart of mine
          B7                     E
I keep my eyes wide open all the time
           A                         E
I keep the ends out for the tie that binds
               B7               E
Because you're mine, I walk the line


A|--------0-|---0---0---0---0---0---0---0---0-|
E|--0-2-4---|-0---0---0---0---0---0---0---0---|
D|----------|---------------------------------|
G|----------|---------------------------------|  
(AA x4)


2nd verse/chorus :
          E7                    A 
I find it very, very easy to be true
          E7                         A
I find myself alone when each day is through
            D                  A
Yes, I'll admit I'm a fool for you
               E7               A 
Because you're mine, I walk the line



A|--0-2-4-5-|-0-5-0-5-0-5-0-5-0-5-0-5-0-5-0---|
E|----------|---------------------------------| (D x4)
C|----------|---------------------------------|
G|----------|---------------------------------|

3rd verse/chorus :
            A7                      D
As sure as night is dark and day is light
           A7                      D
I keep you on my mind both day and night
          G                               D
And happiness I've known proves that it's right
              A7                D
Because you're mine, I walk the line


A|--5-4-2-0-|---0---0---0---0---0---0---0---0--|   (A x4)
E|----------|-0---0---0---0---0---0---0---0----|
C|----------|----------------------------------|
G|----------|----------------------------------|


4th verse/chorus :
             E7                     A
You've got a way to keep me on your side
            E7                        A
You give me cause for love that I can't hide
           D                            A 
For you I know I'd even try to turn the tide
               E7               A
Because you're mine, I walk the line


A|--0-------|-2---2---2---2---2---2---2---2---|   (E x4)
E|----4-2-0-|---0---0---0---0---0---0---0---0-|
C|----------|---------------------------------|
G|----------|---------------------------------|


5th verse/chorus :
         B7                           E
I keep a close watch on this heart of mine
          B7                     E
I keep my eyes wide open all the time.
           A                         E
I keep the ends out for the tie that binds
               B7               E
Because you're mine, I walk the line


Fade out:
  E
A|-2---2---2---2--
E|---0---0---0---- etc.
C|----------------
G|----------------


Uke Tab comments